Slide et résonateurs

Présentation et FAQ sur la slide et les guitares résonateurs
 
AccueilAccueil  CalendrierCalendrier  FAQFAQ  RechercherRechercher  S'enregistrerS'enregistrer  MembresMembres  GroupesGroupes  Connexion  

Partagez | 
 

 Ben harper feat Vanessa da Mata

Voir le sujet précédent Voir le sujet suivant Aller en bas 
AuteurMessage
robertjohnson64
Langue pendue
avatar

Nombre de messages : 143
Age : 30
Localisation : Aix en provence (13)
Date d'inscription : 30/12/2005

MessageSujet: Ben harper feat Vanessa da Mata   Lun 3 Déc - 20:18

Slt a tous, en ce moment j'écoute beacoup cette chanson de Ben harper et Vanessa da Mata "boa sorte", et je voulais savoir si l'un d'entre vous aurait la tab du solo que ben fait.
J'ai essayé de chercher mais je bloque, donc je demande un peu d'aide. Je pense que c'est en open d sans la tierce (DADDAD).
Revenir en haut Aller en bas
Voir le profil de l'utilisateur
robertjohnson64
Langue pendue
avatar

Nombre de messages : 143
Age : 30
Localisation : Aix en provence (13)
Date d'inscription : 30/12/2005

MessageSujet: Re: Ben harper feat Vanessa da Mata   Dim 16 Déc - 7:45

Bon comme je n'ai pas de réponse ouin ! je fais un petit up et je met ce que j'ai trouvé bien que je bloque a la fin:
En open D (surement sans tierce a la Ben Harper mais la corde ne me semble pas utilisée sur le solo donc ca change pas grand chose, sauf erreur de ma part honte ), excusez la notation quelque peu hazardeuse et les erreurs.

Pour ceux qui ne connaissent pas la chanson:
http://youtube.com/watch?v=y8dQP5srrGk
le solo est à 1min30.

9-9-9-6-6-4/7-6-4-4/2/4------------2-1-----------------
----------------------------------4/2--------4-6-7-9-9-9--
-------------------------------------------------------------
-------------------------------------------------------------
-------------------------------------------------------------
-------------------------------------------------------------

-------------------/9-9-6-9-6-2-2/4/2-1---1-2------4-4/6/4/2-1/2/1
-7-4--4/6/2-2/4--------------------------4------2/4-------------------
--------------------------------------------------------------------------
--------------------------------------------------------------------------
--------------------------------------------------------------------------
--------------------------------------------------------------------------
Revenir en haut Aller en bas
Voir le profil de l'utilisateur
 
Ben harper feat Vanessa da Mata
Voir le sujet précédent Voir le sujet suivant Revenir en haut 
Page 1 sur 1
 Sujets similaires
-
» Ben harper feat Vanessa da Mata
» Ben Harper
» Nouveau groupe pour Ben harper
» LE son weissenborn de Ben Harper!!!!!!!
» Recherche 2 morceaux de Ben Harper

Permission de ce forum:Vous ne pouvez pas répondre aux sujets dans ce forum
Slide et résonateurs :: recommandations :: tablatures-
Sauter vers: